ISO-10303-21;
HEADER;
FILE_DESCRIPTION (( 'STEP AP203' ),
    '1' );
FILE_NAME ('QM-CAQWP-10-900-2100-M.STEP',
    '2021-01-05T02:44:12',
    ( '' ),
    ( '' ),
    'SwSTEP 2.0',
    'SolidWorks 2020',
    '' );
FILE_SCHEMA (( 'CONFIG_CONTROL_DESIGN' ));
ENDSEC;

DATA;
#1 = AXIS2_PLACEMENT_3D ( 'NONE', #300, #39, #298 ) ;
#2 = ORIENTED_EDGE ( 'NONE', *, *, #231, .T. ) ;
#3 = DIRECTION ( 'NONE',  ( 0.000000000000000000, 0.000000000000000000, 1.000000000000000000 ) ) ;
#4 = ORIENTED_EDGE ( 'NONE', *, *, #204, .T. ) ;
#5 = PRODUCT ( 'QM-CAQWP-10-900-2100-M', 'QM-CAQWP-10-900-2100-M', '', ( #83 ) ) ;
#6 = ORIENTED_EDGE ( 'NONE', *, *, #282, .F. ) ;
#7 = SHAPE_DEFINITION_REPRESENTATION ( #191, #280 ) ;
#8 = EDGE_LOOP ( 'NONE', ( #138, #12, #311, #2 ) ) ;
#9 = AXIS2_PLACEMENT_3D ( 'NONE', #309, #180, #34 ) ;
#10 = APPROVAL_DATE_TIME ( #188, #178 ) ;
#11 = ORGANIZATION ( 'UNSPECIFIED', 'UNSPECIFIED', '' ) ;
#12 = ORIENTED_EDGE ( 'NONE', *, *, #19, .T. ) ;
#13 = EDGE_CURVE ( 'NONE', #315, #201, #104, .T. ) ;
#14 = DATE_AND_TIME ( #244, #281 ) ;
#15 = APPLICATION_CONTEXT ( 'configuration controlled 3d designs of mechanical parts and assemblies' ) ;
#16 = DIRECTION ( 'NONE',  ( 0.000000000000000000, 0.000000000000000000, -1.000000000000000000 ) ) ;
#17 = PERSON_AND_ORGANIZATION ( #251, #11 ) ;
#18 = DIRECTION ( 'NONE',  ( -1.000000000000000000, -0.000000000000000000, -0.000000000000000000 ) ) ;
#19 = EDGE_CURVE ( 'NONE', #79, #61, #202, .T. ) ;
#20 = EDGE_CURVE ( 'NONE', #189, #63, #314, .T. ) ;
#21 = AXIS2_PLACEMENT_3D ( 'NONE', #141, #243, #16 ) ;
#22 = LINE ( 'NONE', #119, #64 ) ;
#23 = DIRECTION ( 'NONE',  ( -1.000000000000000000, -0.000000000000000000, -0.000000000000000000 ) ) ;
#24 = PLANE ( 'NONE',  #229 ) ;
#25 = EDGE_LOOP ( 'NONE', ( #225, #52 ) ) ;
#26 = DESIGN_CONTEXT ( 'detailed design', #27, 'design' ) ;
#27 = APPLICATION_CONTEXT ( 'configuration controlled 3d designs of mechanical parts and assemblies' ) ;
#28 = ORIENTED_EDGE ( 'NONE', *, *, #288, .F. ) ;
#29 = CARTESIAN_POINT ( 'NONE',  ( 3.000000000000000000, 0.000000000000000000, 0.000000000000000000 ) ) ;
#30 = EDGE_LOOP ( 'NONE', ( #112, #209, #265, #260 ) ) ;
#31 = APPROVAL_PERSON_ORGANIZATION ( #40, #101, #294 ) ;
#32 = LINE ( 'NONE', #158, #118 ) ;
#33 = CARTESIAN_POINT ( 'NONE',  ( -1.614212418857619014, 0.000000000000000000, 5.000000000000000888 ) ) ;
#34 = DIRECTION ( 'NONE',  ( 0.000000000000000000, 0.000000000000000000, -1.000000000000000000 ) ) ;
#35 = DATE_AND_TIME ( #183, #219 ) ;
#36 = APPLICATION_PROTOCOL_DEFINITION ( 'international standard', 'config_control_design', 1994, #27 ) ;
#37 = AXIS2_PLACEMENT_3D ( 'NONE', #164, #216, #170 ) ;
#38 = AXIS2_PLACEMENT_3D ( 'NONE', #149, #23, #100 ) ;
#39 = DIRECTION ( 'NONE',  ( -1.000000000000000000, -0.000000000000000000, -0.000000000000000000 ) ) ;
#40 = PERSON_AND_ORGANIZATION ( #251, #11 ) ;
#41 = DIRECTION ( 'NONE',  ( 0.000000000000000000, 0.000000000000000000, 1.000000000000000000 ) ) ;
#42 = CALENDAR_DATE ( 2021, 5, 1 ) ;
#43 = DIRECTION ( 'NONE',  ( 0.000000000000000000, 0.000000000000000000, 1.000000000000000000 ) ) ;
#44 = VECTOR ( 'NONE', #133, 1000.000000000000000 ) ;
#45 = CIRCLE ( 'NONE', #103, 5.000000000000000000 ) ;
#46 = DIRECTION ( 'NONE',  ( -0.000000000000000000, 0.000000000000000000, 1.000000000000000000 ) ) ;
#47 = FACE_OUTER_BOUND ( 'NONE', #256, .T. ) ;
#48 = DIRECTION ( 'NONE',  ( 0.000000000000000000, 0.000000000000000000, 1.000000000000000000 ) ) ;
#49 = DIRECTION ( 'NONE',  ( 1.000000000000000000, 0.000000000000000000, 0.000000000000000000 ) ) ;
#50 = CIRCLE ( 'NONE', #206, 5.000000000000000000 ) ;
#51 = PRODUCT_RELATED_PRODUCT_CATEGORY ( 'detail', '', ( #5 ) ) ;
#52 = ORIENTED_EDGE ( 'NONE', *, *, #291, .T. ) ;
#53 = EDGE_LOOP ( 'NONE', ( #287, #110, #233, #278 ) ) ;
#54 = PRODUCT_DEFINITION ( 'UNKNOWN', '', #319, #26 ) ;
#55 = DIRECTION ( 'NONE',  ( 0.000000000000000000, 0.000000000000000000, -1.000000000000000000 ) ) ;
#56 = EDGE_CURVE ( 'NONE', #61, #303, #182, .T. ) ;
#57 = CARTESIAN_POINT ( 'NONE',  ( -1.614212418857619014, 0.000000000000000000, 5.000000000000000888 ) ) ;
#58 = CARTESIAN_POINT ( 'NONE',  ( -1.614212418857619014, 6.123233995736767268E-16, -5.000000000000000888 ) ) ;
#59 = EDGE_LOOP ( 'NONE', ( #331, #214 ) ) ;
#60 = EDGE_LOOP ( 'NONE', ( #277, #163 ) ) ;
#61 = VERTEX_POINT ( 'NONE', #238 ) ;
#62 = PERSON_AND_ORGANIZATION ( #251, #11 ) ;
#63 = VERTEX_POINT ( 'NONE', #121 ) ;
#64 = VECTOR ( 'NONE', #304, 1000.000000000000000 ) ;
#65 = CARTESIAN_POINT ( 'NONE',  ( -3.000000000000000000, 6.123233995736766282E-16, -5.000000000000000000 ) ) ;
#66 = PERSON_AND_ORGANIZATION ( #251, #11 ) ;
#67 = DIRECTION ( 'NONE',  ( 0.000000000000000000, 0.000000000000000000, 1.000000000000000000 ) ) ;
#68 = CARTESIAN_POINT ( 'NONE',  ( -1.614212418857619014, 0.000000000000000000, 0.000000000000000000 ) ) ;
#69 = FACE_OUTER_BOUND ( 'NONE', #102, .T. ) ;
#70 = FACE_BOUND ( 'NONE', #25, .T. ) ;
#71 = ADVANCED_FACE ( 'NONE', ( #320 ), #249, .F. ) ;
#72 = CARTESIAN_POINT ( 'NONE',  ( 3.000000000000000000, 0.000000000000000000, 12.69999999999999929 ) ) ;
#73 = CIRCLE ( 'NONE', #235, 5.000000000000001776 ) ;
#74 = DIRECTION ( 'NONE',  ( -0.000000000000000000, 0.000000000000000000, 1.000000000000000000 ) ) ;
#75 = CC_DESIGN_PERSON_AND_ORGANIZATION_ASSIGNMENT ( #313, #88, ( #319 ) ) ;
#76 = ADVANCED_FACE ( 'NONE', ( #47 ), #269, .F. ) ;
#77 = ORIENTED_EDGE ( 'NONE', *, *, #56, .F. ) ;
#78 = CARTESIAN_POINT ( 'NONE',  ( -3.000000000000000000, 0.000000000000000000, 12.69999999999999929 ) ) ;
#79 = VERTEX_POINT ( 'NONE', #94 ) ;
#80 = APPROVAL_ROLE ( '' ) ;
#81 = EDGE_LOOP ( 'NONE', ( #199, #28 ) ) ;
#82 = CC_DESIGN_APPROVAL ( #178, ( #319 ) ) ;
#83 = MECHANICAL_CONTEXT ( 'NONE', #15, 'mechanical' ) ;
#84 = ADVANCED_FACE ( 'NONE', ( #322 ), #268, .F. ) ;
#85 = ADVANCED_FACE ( 'NONE', ( #120 ), #221, .T. ) ;
#86 = DIRECTION ( 'NONE',  ( 0.000000000000000000, 0.000000000000000000, 1.000000000000000000 ) ) ;
#87 = DIRECTION ( 'NONE',  ( -1.000000000000000000, -0.000000000000000000, -0.000000000000000000 ) ) ;
#88 = PERSON_AND_ORGANIZATION_ROLE ( 'design_supplier' ) ;
#89 = APPROVAL_PERSON_ORGANIZATION ( #316, #178, #292 ) ;
#90 = DIRECTION ( 'NONE',  ( 0.000000000000000000, 0.000000000000000000, 1.000000000000000000 ) ) ;
#91 = DIRECTION ( 'NONE',  ( 0.000000000000000000, 0.000000000000000000, 1.000000000000000000 ) ) ;
#92 = DIRECTION ( 'NONE',  ( -1.000000000000000000, -0.000000000000000000, -0.000000000000000000 ) ) ;
#93 = AXIS2_PLACEMENT_3D ( 'NONE', #167, #321, #91 ) ;
#94 = CARTESIAN_POINT ( 'NONE',  ( -0.5000000000000002220, 6.123233995736767268E-16, -5.000000000000000888 ) ) ;
#95 = APPLICATION_PROTOCOL_DEFINITION ( 'international standard', 'config_control_design', 1994, #15 ) ;
#96 = EDGE_CURVE ( 'NONE', #201, #140, #279, .T. ) ;
#97 = EDGE_CURVE ( 'NONE', #160, #303, #175, .T. ) ;
#98 = DIRECTION ( 'NONE',  ( -1.000000000000000000, -0.000000000000000000, -0.000000000000000000 ) ) ;
#99 = ORIENTED_EDGE ( 'NONE', *, *, #20, .T. ) ;
#100 = DIRECTION ( 'NONE',  ( 0.000000000000000000, 0.000000000000000000, 1.000000000000000000 ) ) ;
#101 = APPROVAL ( #318, 'UNSPECIFIED' ) ;
#102 = EDGE_LOOP ( 'NONE', ( #6, #187, #99, #4 ) ) ;
#103 = AXIS2_PLACEMENT_3D ( 'NONE', #208, #174, #310 ) ;
#104 = LINE ( 'NONE', #207, #184 ) ;
#105 = DIRECTION ( 'NONE',  ( -1.000000000000000000, -0.000000000000000000, -0.000000000000000000 ) ) ;
#106 = ORIENTED_EDGE ( 'NONE', *, *, #134, .T. ) ;
#107 = APPROVAL ( #312, 'UNSPECIFIED' ) ;
#108 = EDGE_LOOP ( 'NONE', ( #253, #156 ) ) ;
#109 = ADVANCED_FACE ( 'NONE', ( #69 ), #145, .F. ) ;
#110 = ORIENTED_EDGE ( 'NONE', *, *, #161, .T. ) ;
#111 = ADVANCED_FACE ( 'NONE', ( #274 ), #301, .T. ) ;
#112 = ORIENTED_EDGE ( 'NONE', *, *, #161, .F. ) ;
#113 = PERSON_AND_ORGANIZATION_ROLE ( 'creator' ) ;
#114 = DIRECTION ( 'NONE',  ( 0.000000000000000000, 0.000000000000000000, 1.000000000000000000 ) ) ;
#115 = DATE_TIME_ROLE ( 'creation_date' ) ;
#116 = CIRCLE ( 'NONE', #37, 5.000000000000001776 ) ;
#117 = PERSON_AND_ORGANIZATION ( #251, #11 ) ;
#118 = VECTOR ( 'NONE', #98, 1000.000000000000000 ) ;
#119 = CARTESIAN_POINT ( 'NONE',  ( -1.614212418857619014, 1.555301434917138433E-15, -12.69999999999999929 ) ) ;
#120 = FACE_OUTER_BOUND ( 'NONE', #53, .T. ) ;
#121 = CARTESIAN_POINT ( 'NONE',  ( 0.5000000000000004441, 0.000000000000000000, 5.000000000000000000 ) ) ;
#122 = AXIS2_PLACEMENT_3D ( 'NONE', #172, #192, #272 ) ;
#123 = AXIS2_PLACEMENT_3D ( 'NONE', #283, #329, #74 ) ;
#124 = CC_DESIGN_PERSON_AND_ORGANIZATION_ASSIGNMENT ( #66, #262, ( #171 ) ) ;
#125 = ORIENTED_EDGE ( 'NONE', *, *, #282, .T. ) ;
#126 = DIRECTION ( 'NONE',  ( -1.000000000000000000, -0.000000000000000000, -0.000000000000000000 ) ) ;
#127 = DIRECTION ( 'NONE',  ( 0.000000000000000000, 0.000000000000000000, -1.000000000000000000 ) ) ;
#128 = CIRCLE ( 'NONE', #193, 12.69999999999999929 ) ;
#129 = AXIS2_PLACEMENT_3D ( 'NONE', #227, #237, #3 ) ;
#130 = VERTEX_POINT ( 'NONE', #148 ) ;
#131 = VERTEX_POINT ( 'NONE', #250 ) ;
#132 =( LENGTH_UNIT ( ) NAMED_UNIT ( * ) SI_UNIT ( .MILLI., .METRE. ) );
#133 = DIRECTION ( 'NONE',  ( -1.000000000000000000, -0.000000000000000000, -0.000000000000000000 ) ) ;
#134 = EDGE_CURVE ( 'NONE', #254, #63, #325, .T. ) ;
#135 = CARTESIAN_POINT ( 'NONE',  ( -3.000000000000000000, 0.000000000000000000, 0.000000000000000000 ) ) ;
#136 = DIRECTION ( 'NONE',  ( -1.000000000000000000, -0.000000000000000000, -0.000000000000000000 ) ) ;
#137 = CALENDAR_DATE ( 2021, 5, 1 ) ;
#138 = ORIENTED_EDGE ( 'NONE', *, *, #326, .F. ) ;
#139 = CLOSED_SHELL ( 'NONE', ( #85, #76, #157, #71, #109, #84, #261, #111, #302, #212 ) ) ;
#140 = VERTEX_POINT ( 'NONE', #245 ) ;
#141 = CARTESIAN_POINT ( 'NONE',  ( -0.5000000000000002220, 0.000000000000000000, 0.000000000000000000 ) ) ;
#142 = APPROVAL_DATE_TIME ( #14, #101 ) ;
#143 = CARTESIAN_POINT ( 'NONE',  ( -3.000000000000000000, 0.000000000000000000, 0.000000000000000000 ) ) ;
#144 = DATE_AND_TIME ( #270, #327 ) ;
#145 = CYLINDRICAL_SURFACE ( 'NONE', #122, 5.000000000000000888 ) ;
#146 =( GEOMETRIC_REPRESENTATION_CONTEXT ( 3 ) GLOBAL_UNCERTAINTY_ASSIGNED_CONTEXT ( ( #328 ) ) GLOBAL_UNIT_ASSIGNED_CONTEXT ( ( #132, #152, #234 ) ) REPRESENTATION_CONTEXT ( 'NONE', 'WORKASPACE' ) );
#147 = EDGE_CURVE ( 'NONE', #189, #131, #116, .T. ) ;
#148 = CARTESIAN_POINT ( 'NONE',  ( 3.000000000000000000, 1.555301434917138433E-15, -12.69999999999999929 ) ) ;
#149 = CARTESIAN_POINT ( 'NONE',  ( -3.000000000000000000, 0.000000000000000000, 0.000000000000000000 ) ) ;
#150 = LINE ( 'NONE', #58, #273 ) ;
#151 = ORIENTED_EDGE ( 'NONE', *, *, #96, .T. ) ;
#152 =( NAMED_UNIT ( * ) PLANE_ANGLE_UNIT ( ) SI_UNIT ( $, .RADIAN. ) );
#153 = AXIS2_PLACEMENT_3D ( 'NONE', #195, #18, #90 ) ;
#154 = CIRCLE ( 'NONE', #38, 12.69999999999999929 ) ;
#155 = EDGE_CURVE ( 'NONE', #61, #79, #305, .T. ) ;
#156 = ORIENTED_EDGE ( 'NONE', *, *, #19, .F. ) ;
#157 = ADVANCED_FACE ( 'NONE', ( #299 ), #271, .F. ) ;
#158 = CARTESIAN_POINT ( 'NONE',  ( -1.614212418857619014, 6.123233995736767268E-16, -5.000000000000000888 ) ) ;
#159 = ORIENTED_EDGE ( 'NONE', *, *, #97, .T. ) ;
#160 = VERTEX_POINT ( 'NONE', #65 ) ;
#161 = EDGE_CURVE ( 'NONE', #130, #140, #22, .T. ) ;
#162 = APPROVAL_STATUS ( 'not_yet_approved' ) ;
#163 = ORIENTED_EDGE ( 'NONE', *, *, #134, .F. ) ;
#164 = CARTESIAN_POINT ( 'NONE',  ( 3.000000000000000000, 0.000000000000000000, 0.000000000000000000 ) ) ;
#165 = CC_DESIGN_SECURITY_CLASSIFICATION ( #171, ( #319 ) ) ;
#166 = PERSON_AND_ORGANIZATION_ROLE ( 'design_owner' ) ;
#167 = CARTESIAN_POINT ( 'NONE',  ( -1.614212418857619014, 0.000000000000000000, 0.000000000000000000 ) ) ;
#168 = COORDINATED_UNIVERSAL_TIME_OFFSET ( 8, 0, .AHEAD. ) ;
#169 = CC_DESIGN_PERSON_AND_ORGANIZATION_ASSIGNMENT ( #62, #166, ( #5 ) ) ;
#170 = DIRECTION ( 'NONE',  ( 0.000000000000000000, 0.000000000000000000, 1.000000000000000000 ) ) ;
#171 = SECURITY_CLASSIFICATION ( '', '', #297 ) ;
#172 = CARTESIAN_POINT ( 'NONE',  ( -1.614212418857619014, 0.000000000000000000, 0.000000000000000000 ) ) ;
#173 = CARTESIAN_POINT ( 'NONE',  ( 3.000000000000000000, 0.000000000000000000, 5.000000000000001776 ) ) ;
#174 = DIRECTION ( 'NONE',  ( -1.000000000000000000, -0.000000000000000000, -0.000000000000000000 ) ) ;
#175 = CIRCLE ( 'NONE', #1, 5.000000000000000000 ) ;
#176 = AXIS2_PLACEMENT_3D ( 'NONE', #324, #197, #67 ) ;
#177 = APPROVAL_PERSON_ORGANIZATION ( #117, #107, #80 ) ;
#178 = APPROVAL ( #162, 'UNSPECIFIED' ) ;
#179 = DIRECTION ( 'NONE',  ( -1.000000000000000000, -0.000000000000000000, -0.000000000000000000 ) ) ;
#180 = DIRECTION ( 'NONE',  ( 1.000000000000000000, 0.000000000000000000, 0.000000000000000000 ) ) ;
#181 = FACE_OUTER_BOUND ( 'NONE', #81, .T. ) ;
#182 = LINE ( 'NONE', #33, #228 ) ;
#183 = CALENDAR_DATE ( 2021, 5, 1 ) ;
#184 = VECTOR ( 'NONE', #211, 1000.000000000000000 ) ;
#185 = AXIS2_PLACEMENT_3D ( 'NONE', #317, #87, #43 ) ;
#186 = COORDINATED_UNIVERSAL_TIME_OFFSET ( 8, 0, .AHEAD. ) ;
#187 = ORIENTED_EDGE ( 'NONE', *, *, #147, .F. ) ;
#188 = DATE_AND_TIME ( #42, #242 ) ;
#189 = VERTEX_POINT ( 'NONE', #173 ) ;
#190 = CARTESIAN_POINT ( 'NONE',  ( 0.000000000000000000, 0.000000000000000000, 0.000000000000000000 ) ) ;
#191 = PRODUCT_DEFINITION_SHAPE ( 'NONE', 'NONE',  #54 ) ;
#192 = DIRECTION ( 'NONE',  ( -1.000000000000000000, -0.000000000000000000, -0.000000000000000000 ) ) ;
#193 = AXIS2_PLACEMENT_3D ( 'NONE', #29, #275, #200 ) ;
#194 = CARTESIAN_POINT ( 'NONE',  ( -1.614212418857619014, 0.000000000000000000, 0.000000000000000000 ) ) ;
#195 = CARTESIAN_POINT ( 'NONE',  ( -1.614212418857619014, 0.000000000000000000, 0.000000000000000000 ) ) ;
#196 = AXIS2_PLACEMENT_3D ( 'NONE', #218, #220, #46 ) ;
#197 = DIRECTION ( 'NONE',  ( -1.000000000000000000, -0.000000000000000000, -0.000000000000000000 ) ) ;
#198 = CARTESIAN_POINT ( 'NONE',  ( -0.5000000000000002220, 5.000000000000000000, 0.000000000000000000 ) ) ;
#199 = ORIENTED_EDGE ( 'NONE', *, *, #223, .F. ) ;
#200 = DIRECTION ( 'NONE',  ( 0.000000000000000000, 0.000000000000000000, 1.000000000000000000 ) ) ;
#201 = VERTEX_POINT ( 'NONE', #78 ) ;
#202 = CIRCLE ( 'NONE', #9, 5.000000000000000888 ) ;
#203 = DIRECTION ( 'NONE',  ( 0.000000000000000000, 0.000000000000000000, 1.000000000000000000 ) ) ;
#204 = EDGE_CURVE ( 'NONE', #63, #254, #45, .T. ) ;
#205 = ORIENTED_EDGE ( 'NONE', *, *, #155, .T. ) ;
#206 = AXIS2_PLACEMENT_3D ( 'NONE', #135, #126, #48 ) ;
#207 = CARTESIAN_POINT ( 'NONE',  ( -1.614212418857619014, 0.000000000000000000, 12.69999999999999929 ) ) ;
#208 = CARTESIAN_POINT ( 'NONE',  ( 0.5000000000000004441, 0.000000000000000000, 0.000000000000000000 ) ) ;
#209 = ORIENTED_EDGE ( 'NONE', *, *, #288, .T. ) ;
#210 = DIRECTION ( 'NONE',  ( 1.000000000000000000, 0.000000000000000000, 0.000000000000000000 ) ) ;
#211 = DIRECTION ( 'NONE',  ( -1.000000000000000000, -0.000000000000000000, -0.000000000000000000 ) ) ;
#212 = ADVANCED_FACE ( 'NONE', ( #224 ), #24, .F. ) ;
#213 = DATE_TIME_ROLE ( 'classification_date' ) ;
#214 = ORIENTED_EDGE ( 'NONE', *, *, #97, .F. ) ;
#215 = COORDINATED_UNIVERSAL_TIME_OFFSET ( 8, 0, .AHEAD. ) ;
#216 = DIRECTION ( 'NONE',  ( -1.000000000000000000, -0.000000000000000000, -0.000000000000000000 ) ) ;
#217 = COORDINATED_UNIVERSAL_TIME_OFFSET ( 8, 0, .AHEAD. ) ;
#218 = CARTESIAN_POINT ( 'NONE',  ( 0.5000000000000002220, 5.000000000000000000, 0.000000000000000000 ) ) ;
#219 = LOCAL_TIME ( 10, 44, 12.00000000000000000, #264 ) ;
#220 = DIRECTION ( 'NONE',  ( -1.000000000000000000, 0.000000000000000000, -0.000000000000000000 ) ) ;
#221 = CYLINDRICAL_SURFACE ( 'NONE', #93, 12.69999999999999929 ) ;
#222 = DIRECTION ( 'NONE',  ( 0.000000000000000000, 0.000000000000000000, 1.000000000000000000 ) ) ;
#223 = EDGE_CURVE ( 'NONE', #315, #130, #128, .T. ) ;
#224 = FACE_OUTER_BOUND ( 'NONE', #108, .T. ) ;
#225 = ORIENTED_EDGE ( 'NONE', *, *, #147, .T. ) ;
#226 = CARTESIAN_POINT ( 'NONE',  ( 0.5000000000000004441, 6.123233995736766282E-16, -5.000000000000000000 ) ) ;
#227 = CARTESIAN_POINT ( 'NONE',  ( 3.000000000000000000, 0.000000000000000000, 0.000000000000000000 ) ) ;
#228 = VECTOR ( 'NONE', #136, 1000.000000000000000 ) ;
#229 = AXIS2_PLACEMENT_3D ( 'NONE', #198, #285, #127 ) ;
#230 = AXIS2_PLACEMENT_3D ( 'NONE', #252, #49, #55 ) ;
#231 = EDGE_CURVE ( 'NONE', #303, #160, #50, .T. ) ;
#232 = CC_DESIGN_DATE_AND_TIME_ASSIGNMENT ( #144, #213, ( #171 ) ) ;
#233 = ORIENTED_EDGE ( 'NONE', *, *, #96, .F. ) ;
#234 =( NAMED_UNIT ( * ) SI_UNIT ( $, .STERADIAN. ) SOLID_ANGLE_UNIT ( ) );
#235 = AXIS2_PLACEMENT_3D ( 'NONE', #255, #105, #203 ) ;
#236 = EDGE_LOOP ( 'NONE', ( #151, #293 ) ) ;
#237 = DIRECTION ( 'NONE',  ( -1.000000000000000000, -0.000000000000000000, -0.000000000000000000 ) ) ;
#238 = CARTESIAN_POINT ( 'NONE',  ( -0.5000000000000002220, 0.000000000000000000, 5.000000000000000888 ) ) ;
#239 = DATE_AND_TIME ( #137, #259 ) ;
#240 = AXIS2_PLACEMENT_3D ( 'NONE', #194, #296, #114 ) ;
#241 = EDGE_LOOP ( 'NONE', ( #284, #125, #106, #290 ) ) ;
#242 = LOCAL_TIME ( 10, 44, 12.00000000000000000, #217 ) ;
#243 = DIRECTION ( 'NONE',  ( 1.000000000000000000, 0.000000000000000000, 0.000000000000000000 ) ) ;
#244 = CALENDAR_DATE ( 2021, 5, 1 ) ;
#245 = CARTESIAN_POINT ( 'NONE',  ( -3.000000000000000000, 1.555301434917138433E-15, -12.69999999999999929 ) ) ;
#246 = PERSON_AND_ORGANIZATION ( #251, #11 ) ;
#247 = DIRECTION ( 'NONE',  ( -1.000000000000000000, -0.000000000000000000, -0.000000000000000000 ) ) ;
#248 = AXIS2_PLACEMENT_3D ( 'NONE', #190, #86, #210 ) ;
#249 = PLANE ( 'NONE',  #196 ) ;
#250 = CARTESIAN_POINT ( 'NONE',  ( 3.000000000000000000, 6.123233995736768255E-16, -5.000000000000001776 ) ) ;
#251 = PERSON ( 'UNSPECIFIED', 'UNSPECIFIED', 'UNSPECIFIED', ('UNSPECIFIED'), ('UNSPECIFIED'), ('UNSPECIFIED') ) ;
#252 = CARTESIAN_POINT ( 'NONE',  ( -3.000000000000000000, 5.000000000000000000, 0.000000000000000000 ) ) ;
#253 = ORIENTED_EDGE ( 'NONE', *, *, #155, .F. ) ;
#254 = VERTEX_POINT ( 'NONE', #226 ) ;
#255 = CARTESIAN_POINT ( 'NONE',  ( 3.000000000000000000, 0.000000000000000000, 0.000000000000000000 ) ) ;
#256 = EDGE_LOOP ( 'NONE', ( #205, #263, #159, #77 ) ) ;
#257 = CARTESIAN_POINT ( 'NONE',  ( -3.000000000000000000, 0.000000000000000000, 5.000000000000000000 ) ) ;
#258 = AXIS2_PLACEMENT_3D ( 'NONE', #68, #247, #41 ) ;
#259 = LOCAL_TIME ( 10, 44, 12.00000000000000000, #215 ) ;
#260 = ORIENTED_EDGE ( 'NONE', *, *, #308, .F. ) ;
#261 = ADVANCED_FACE ( 'NONE', ( #333, #276 ), #330, .F. ) ;
#262 = PERSON_AND_ORGANIZATION_ROLE ( 'classification_officer' ) ;
#263 = ORIENTED_EDGE ( 'NONE', *, *, #326, .T. ) ;
#264 = COORDINATED_UNIVERSAL_TIME_OFFSET ( 8, 0, .AHEAD. ) ;
#265 = ORIENTED_EDGE ( 'NONE', *, *, #13, .T. ) ;
#266 = PERSON_AND_ORGANIZATION_ROLE ( 'creator' ) ;
#267 = CIRCLE ( 'NONE', #129, 12.69999999999999929 ) ;
#268 = CYLINDRICAL_SURFACE ( 'NONE', #240, 5.000000000000000888 ) ;
#269 = CYLINDRICAL_SURFACE ( 'NONE', #153, 5.000000000000000888 ) ;
#270 = CALENDAR_DATE ( 2021, 5, 1 ) ;
#271 = CYLINDRICAL_SURFACE ( 'NONE', #185, 5.000000000000000888 ) ;
#272 = DIRECTION ( 'NONE',  ( 0.000000000000000000, 0.000000000000000000, 1.000000000000000000 ) ) ;
#273 = VECTOR ( 'NONE', #179, 1000.000000000000000 ) ;
#274 = FACE_OUTER_BOUND ( 'NONE', #30, .T. ) ;
#275 = DIRECTION ( 'NONE',  ( -1.000000000000000000, -0.000000000000000000, -0.000000000000000000 ) ) ;
#276 = FACE_OUTER_BOUND ( 'NONE', #236, .T. ) ;
#277 = ORIENTED_EDGE ( 'NONE', *, *, #204, .F. ) ;
#278 = ORIENTED_EDGE ( 'NONE', *, *, #13, .F. ) ;
#279 = CIRCLE ( 'NONE', #323, 12.69999999999999929 ) ;
#280 = ADVANCED_BREP_SHAPE_REPRESENTATION ( 'QM-CAQWP-10-900-2100-M', ( #335, #248 ), #146 ) ;
#281 = LOCAL_TIME ( 10, 44, 12.00000000000000000, #186 ) ;
#282 = EDGE_CURVE ( 'NONE', #131, #254, #32, .T. ) ;
#283 = CARTESIAN_POINT ( 'NONE',  ( 3.000000000000000000, 12.69999999999999929, 0.000000000000000000 ) ) ;
#284 = ORIENTED_EDGE ( 'NONE', *, *, #291, .F. ) ;
#285 = DIRECTION ( 'NONE',  ( 1.000000000000000000, 0.000000000000000000, 0.000000000000000000 ) ) ;
#286 = CC_DESIGN_PERSON_AND_ORGANIZATION_ASSIGNMENT ( #246, #266, ( #319 ) ) ;
#287 = ORIENTED_EDGE ( 'NONE', *, *, #223, .T. ) ;
#288 = EDGE_CURVE ( 'NONE', #130, #315, #267, .T. ) ;
#289 = APPROVAL_DATE_TIME ( #35, #107 ) ;
#290 = ORIENTED_EDGE ( 'NONE', *, *, #20, .F. ) ;
#291 = EDGE_CURVE ( 'NONE', #131, #189, #73, .T. ) ;
#292 = APPROVAL_ROLE ( '' ) ;
#293 = ORIENTED_EDGE ( 'NONE', *, *, #308, .T. ) ;
#294 = APPROVAL_ROLE ( '' ) ;
#295 = CC_DESIGN_APPROVAL ( #107, ( #171 ) ) ;
#296 = DIRECTION ( 'NONE',  ( -1.000000000000000000, -0.000000000000000000, -0.000000000000000000 ) ) ;
#297 = SECURITY_CLASSIFICATION_LEVEL ( 'unclassified' ) ;
#298 = DIRECTION ( 'NONE',  ( 0.000000000000000000, 0.000000000000000000, 1.000000000000000000 ) ) ;
#299 = FACE_OUTER_BOUND ( 'NONE', #241, .T. ) ;
#300 = CARTESIAN_POINT ( 'NONE',  ( -3.000000000000000000, 0.000000000000000000, 0.000000000000000000 ) ) ;
#301 = CYLINDRICAL_SURFACE ( 'NONE', #258, 12.69999999999999929 ) ;
#302 = ADVANCED_FACE ( 'NONE', ( #181, #70 ), #306, .F. ) ;
#303 = VERTEX_POINT ( 'NONE', #257 ) ;
#304 = DIRECTION ( 'NONE',  ( -1.000000000000000000, -0.000000000000000000, -0.000000000000000000 ) ) ;
#305 = CIRCLE ( 'NONE', #21, 5.000000000000000888 ) ;
#306 = PLANE ( 'NONE',  #123 ) ;
#307 = CC_DESIGN_PERSON_AND_ORGANIZATION_ASSIGNMENT ( #17, #113, ( #54 ) ) ;
#308 = EDGE_CURVE ( 'NONE', #140, #201, #154, .T. ) ;
#309 = CARTESIAN_POINT ( 'NONE',  ( -0.5000000000000002220, 0.000000000000000000, 0.000000000000000000 ) ) ;
#310 = DIRECTION ( 'NONE',  ( 0.000000000000000000, 0.000000000000000000, 1.000000000000000000 ) ) ;
#311 = ORIENTED_EDGE ( 'NONE', *, *, #56, .T. ) ;
#312 = APPROVAL_STATUS ( 'not_yet_approved' ) ;
#313 = PERSON_AND_ORGANIZATION ( #251, #11 ) ;
#314 = LINE ( 'NONE', #57, #44 ) ;
#315 = VERTEX_POINT ( 'NONE', #72 ) ;
#316 = PERSON_AND_ORGANIZATION ( #251, #11 ) ;
#317 = CARTESIAN_POINT ( 'NONE',  ( -1.614212418857619014, 0.000000000000000000, 0.000000000000000000 ) ) ;
#318 = APPROVAL_STATUS ( 'not_yet_approved' ) ;
#319 = PRODUCT_DEFINITION_FORMATION_WITH_SPECIFIED_SOURCE ( 'ANY', '', #5, .NOT_KNOWN. ) ;
#320 = FACE_OUTER_BOUND ( 'NONE', #60, .T. ) ;
#321 = DIRECTION ( 'NONE',  ( -1.000000000000000000, -0.000000000000000000, -0.000000000000000000 ) ) ;
#322 = FACE_OUTER_BOUND ( 'NONE', #8, .T. ) ;
#323 = AXIS2_PLACEMENT_3D ( 'NONE', #143, #92, #222 ) ;
#324 = CARTESIAN_POINT ( 'NONE',  ( 0.5000000000000004441, 0.000000000000000000, 0.000000000000000000 ) ) ;
#325 = CIRCLE ( 'NONE', #176, 5.000000000000000000 ) ;
#326 = EDGE_CURVE ( 'NONE', #79, #160, #150, .T. ) ;
#327 = LOCAL_TIME ( 10, 44, 12.00000000000000000, #168 ) ;
#328 = UNCERTAINTY_MEASURE_WITH_UNIT (LENGTH_MEASURE( 1.000000000000000082E-05 ), #132, 'distance_accuracy_value', 'NONE');
#329 = DIRECTION ( 'NONE',  ( -1.000000000000000000, 0.000000000000000000, -0.000000000000000000 ) ) ;
#330 = PLANE ( 'NONE',  #230 ) ;
#331 = ORIENTED_EDGE ( 'NONE', *, *, #231, .F. ) ;
#332 = CC_DESIGN_DATE_AND_TIME_ASSIGNMENT ( #239, #115, ( #54 ) ) ;
#333 = FACE_BOUND ( 'NONE', #59, .T. ) ;
#334 = CC_DESIGN_APPROVAL ( #101, ( #54 ) ) ;
#335 = MANIFOLD_SOLID_BREP ( 'Ðý×', #139 ) ;
ENDSEC;
END-ISO-10303-21;
